falling idols

Share and update guitar / bass tabs
Post Reply
User avatar
Stepping_Razor
Rank: Boss DJ
Rank: Boss DJ
Posts: 98
Joined: Thu Oct 21, 2004 10:43 am
Location: MidWestSide
Contact:

falling idols

Post by Stepping_Razor » Wed Mar 16, 2005 12:54 pm

I've looked at quite a few places and they all seem to have the same tab. Most of it I'd say is really accurate but there are a few places I know are not right so that makes me question parts that I'm not so sure of. At exactly 1 min into it, to about 1:08 there is a part and either I just suck at it or it's not right but I just can't figure it out. If someone knows the correct tabs or something that works for them, I'd appreciate any help. I have the rest of it down pretty good(surprisingly), just can't get that one part and of course the other parts like it later on. Thanks in advance for any help!
So while your laughing at me someone else is judging you...

User avatar
Epicure
Rank: Rock Star
Rank: Rock Star
Posts: 7017
Joined: Thu Sep 09, 2004 7:37 pm
Location: Santa Cruz/Hollister, California
Contact:

Post by Epicure » Wed Mar 16, 2005 9:04 pm

i think the tabs are in here well the main site
I love high school girls man, As i get older they stay the same age
Image

User avatar
Stepping_Razor
Rank: Boss DJ
Rank: Boss DJ
Posts: 98
Joined: Thu Oct 21, 2004 10:43 am
Location: MidWestSide
Contact:

Post by Stepping_Razor » Thu Mar 17, 2005 6:11 am

I just looked again, didn't see on here with the rest of the free tabs. I have found tabs for it but it's always the same version on every site. Don't get me wrong they are very good but a few spots are wrong. I've figured out all the wrong spots except for the one listed above. Thx for help and anymore I can get!
So while your laughing at me someone else is judging you...

Poncho
Rank: Rock Star
Rank: Rock Star
Posts: 1170
Joined: Tue Aug 26, 2003 10:17 am
Location: Wellesley, Massachusetts
Contact:

Post by Poncho » Fri Mar 18, 2005 9:50 pm

That part at 1:08 goes a little something like this:

-7777-8-8--8-8--
-9999-10101010
-9999-10101010 2x (I'm talking extremely fast, too)
-9999-10101010
-7777-8-8--8--8
-xxxx-x-x--x--x-

SpecialAgentPunk!
Rank: Pool Shark
Rank: Pool Shark
Posts: 648
Joined: Mon Dec 22, 2003 11:54 pm
Location: Honolulu
Contact:

Post by SpecialAgentPunk! » Wed Apr 06, 2005 9:36 pm

heyy my band covered this song!
--Hurdy Gur--

Image

milf

microphone jones
Rank: Badfish
Rank: Badfish
Posts: 29
Joined: Mon Jul 11, 2005 6:34 am
Location: omaha
Contact:

Post by microphone jones » Mon Jul 11, 2005 7:30 am

can anyone post the tab for falling idols? i would appreciate it very much

Poncho
Rank: Rock Star
Rank: Rock Star
Posts: 1170
Joined: Tue Aug 26, 2003 10:17 am
Location: Wellesley, Massachusetts
Contact:

Post by Poncho » Mon Jul 11, 2005 10:38 am

Maybe later
Image

ZIGGY
Rank: Boss DJ
Rank: Boss DJ
Posts: 71
Joined: Sat Dec 10, 2005 5:46 pm
Location: Toronto, Canada
Contact:

Post by ZIGGY » Sun Dec 18, 2005 6:56 pm

What I learned

Intro:
E|-8--8--7-7-7-5--5-5--5-5-5--5-5-3-3-3-0-0-0-0-0-0-0-0-|
B|-8--8--7-7-7-5--5-5--5-5-5--5-5-3-3-3-0-0-0-0-0-0-0-0-|
G|-9--9--8-8-8-6--6-6--6-6-6--6-6-4-4-4-1-1-1-1-1-1-1-1-|
D|-10-10-9-9-9-7--7-7--7-7-7--7-7-5-5-5-2-2-2-2-2-2-2-2-|
A|-10-10-9-9-9-7--7-7--7-7-7--7-7-5-5-5-2-2-2-2-2-2-2-2-|
E|------------------------------------------------------|

E|-8--8--7-7-7-5--5-5--5-5-5--5-5-3-3-3-0-|
B|-8--8--7-7-7-5--5-5--5-5-5--5-5-3-3-3-0-|
G|-9--9--8-8-8-6--6-6--6-6-6--6-6-4-4-4-1-|
D|-10-10-9-9-9-7--7-7--7-7-7--7-7-5-5-5-2-|
A|-10-10-9-9-9-7--7-7--7-7-7--7-7-5-5-5-2-|
E|--------------------------------------0-|

E|-1-1---0-0---1--0-1-1---0--------------|
B|-1---1-0---0-1--0-1---1-0--------------|
G|-2-----1-----2--1-2-----1--------------|
D|-3-----2-----3--2-3-----2--------------|
A|-3-----2-----3--2-3-----2--------------|
E|-1-----0-----1--0-1-----0---```````----|
w/wammy bar dive and return several times
E|-----------------------------------------------------|
B|------8h10p8-7-7-7-7-8-8/12-------8h10p8-7-7-7-7-8-7-|
G|-/9-9------------------------/9-9--------------------|
D|-----------------------------------------------------|
A|-----------------------------------------------------|
E|-----------------------------------------------------|

E|-----------------------------------------------------|
B|------8h10p8-7-7-7-7-8-8/12-------8h10p8-7-7-7-7-8-7-|
G|-/9-9------------------------/9-9--------------------|
D|-----------------------------------------------------|
A|-----------------------------------------------------|
E|-----------------------------------------------------|

E|---------------------------------------------------------13p12-12-|
B|-5-5-5-5-5-5-6-6/10-9-9h10-10-10/12-12-12-12-13-13-13-13----------|
G|------------------------------------------------------------------|
D|------------------------------------------------------------------|
A|------------------------------------------------------------------|
E|------------------------------------------------------------------|

E|-0-0-0-----1-1-1-----------------------------------------------|
B|-0-0---0---1-1---1-------9-----10-10-10------------------------|
G|-1-1-----1-2-2-----2-9-9---9---10-10----10----9-9-8-9-10-12-10-|
D|-2-2-------3-3-------9-9-----9-10-10-------10-9-9-8-9-10-12-10-|
A|-2---------3-3-------7-7-------8--8-----------7-7-6-7-8--10-8--|
E|-0---------1---------------------------------------------------|

E|-----------------------------------------------------------|
B|-----------------------------------------------------------|
G|-9b-9-9b-9-8b-8-8b-8-7b-7-7b-5---/14b-14-14-14-12----12----|
D|--------------------------------------------------14----14-|
A|-----------------------------------------------------------|
E|-----------------------------------------------------------|

E|--------------------------------------------------------------------|
B|--------------------------------------------------------------------|
G|-17-17-16-16-16-14--14-14--14-14-14--14-14-12-12-12-9-9-9-9-9-9-9-9-|
D|-17-17-16-16-16-14--14-14--14-14-14--14-14-12-12-12-9-9-9-9-9-9-9-9-|
A|-15-15-14-14-14-12--12-12--12-12-12--12-12-10-10-10-7-7-7-7-7-7-7-7-|
E|--------------------------------------------------------------------|

E|-------------------------------------------------|
B|-------------------------------------------------|
G|-------------------------------------------------|
D|-------------------------------------------------|
A|-------------------------------------------------|
E|-0-0-3h5p3-2-2-2-2-3-3/7-0-0-3h5p3-2-2-2-2-3-3/7-|

E|-------------------------------------------------|
B|-------------------------------------------------|
G|-------------------------------------------------|
D|-------------------------------------------------|
A|-------------------------------------------------|
E|-0-0-3h5p3-2-2-2-2-3-3/7-0-0-3h5p3-2-2-2-2-3-3/7-|

E|-0-0-0-----1-1-1-----0-0-----1-1-1-1-0-1-|
B|-0-0---0---1-1---1---0---0---1-1-1-1-0-1-|
G|-1-1-----1-2-2-----2-1-----1-2-2-2-2-1-2-|
D|-2-2-------3-3-------2-------3-3-3-3---3-|
A|-2---------3-3-------2-------3-3-3-3---3-|
E|-0---------1---------0-------1-1-1-1---1-|

E|-----------x-x--------------------x-x--------------------x-x---------|
B|-9-9-9-9-9-x-x-10-x-10--9-9-9-9-9-x-x-10-x-10--9-9-9-9-9-x-x-10-x-10-|
G|-9-9-9-9-9-x-x-10-x-10--9-9-9-9-9-x-x-10-x-10--9-9-9-9-9-x-x-10-x-10-|
D|-9-9-9-9-9-x-x-10-x-10--9-9-9-9-9-x-x-10-x-10--9-9-9-9-9-x-x-10-x-10-|
A|-7-7-7-7-7-x-x-8--x-8---7-7-7-7-7-x-x-8--x-8---7-7-7-7-7-x-x-8--x-8--|
E|-----------x-x--------------------x-x--------------------x-x---------|

E|-----------------------------------------------------------|
B|-----------------------------------------------------------|
G|-9b-9-9b-9-8b-8-8b-8-7b-7-7b-5---/14b-14-14-14-12----12----|
D|--------------------------------------------------14----14-|
A|-----------------------------------------------------------|
E|-----------------------------------------------------------|

E|--------------------------------------------------------------------|
B|--------------------------------------------------------------------|
G|-17-17-16-16-16-14--14-14--14-14-14--14-14-12-12-12-9-9-9-9-9-9-9-9-|
D|-17-17-16-16-16-14--14-14--14-14-14--14-14-12-12-12-9-9-9-9-9-9-9-9-|
A|-15-15-14-14-14-12--12-12--12-12-12--12-12-10-10-10-7-7-7-7-7-7-7-7-|
E|--------------------------------------------------------------------|

E|------------------------------------------------|
B|------------------------------------------------|
G|------------------------------------------------|
D|-----5h7p5-4-4-4-4-5-5/10-----5h7p5-4-4-4-4-5-4-|
A|-7-7----------------------7-7-------------------|
E|------------------------------------------------|

E|------------------------------------------------|
B|------------------------------------------------|
G|------------------------------------------------|
D|-----5h7p5-4-4-4-4-5-5/10-----5h7p5-4-4-4-4-5-4-|
A|-7-7----------------------7-7-------------------|
E|------------------------------------------------|

E|-0-0-0-----1-1-1-----0-0-----1-1-1-1-0-1-|
B|-0-0---0---1-1---1---0---0---1-1-1-1-0-1-|
G|-1-1-----1-2-2-----2-1-----1-2-2-2-2-1-2-|
D|-2-2-------3-3-------2-------3-3-3-3---3-|
A|-2---------3-3-------2-------3-3-3-3---3-|
E|-0---------1---------0-------1-1-1-1---1-|

E|-----------x-x--------------------x-x--------------------x-x---------|
B|-9-9-9-9-9-x-x-10-x-10--9-9-9-9-9-x-x-10-x-10--9-9-9-9-9-x-x-10-x-10-|
G|-9-9-9-9-9-x-x-10-x-10--9-9-9-9-9-x-x-10-x-10--9-9-9-9-9-x-x-10-x-10-|
D|-9-9-9-9-9-x-x-10-x-10--9-9-9-9-9-x-x-10-x-10--9-9-9-9-9-x-x-10-x-10-|
A|-7-7-7-7-7-x-x-8--x-8---7-7-7-7-7-x-x-8--x-8---7-7-7-7-7-x-x-8--x-8--|
E|-----------x-x--------------------x-x--------------------x-x---------|

E|-----------------------------------------------------------|
B|-----------------------------------------------------------|
G|-9b-9-9b-9-8b-8-8b-8-7b-7-7b-5---/14b-14-14-14-12----12----|
D|--------------------------------------------------14----14-|
A|-----------------------------------------------------------|
E|-----------------------------------------------------------|

E|--------------------------------------------------------------------|
B|--------------------------------------------------------------------|
G|-17-17-16-16-16-14--14-14--14-14-14--14-14-12-12-12-9-9-9-9-9-9-9-9-|
D|-17-17-16-16-16-14--14-14--14-14-14--14-14-12-12-12-9-9-9-9-9-9-9-9-|
A|-15-15-14-14-14-12--12-12--12-12-12--12-12-10-10-10-7-7-7-7-7-7-7-7-|
E|--------------------------------------------------------------------|

E|-----------------------------------------------------|
B|------8h10p8-7-7-7-7-8-8/12-------8h10p8-7-7-7-7-8-7-|
G|-/9-9------------------------/9-9--------------------|
D|-----------------------------------------------------|
A|-----------------------------------------------------|
E|-----------------------------------------------------|

E|-----------------------------------------------------|
B|------8h10p8-7-7-7-7-8-8/12-------8h10p8-7-7-7-7-8-7-|
G|-/9-9------------------------/9-9--------------------|
D|-----------------------------------------------------|
A|-----------------------------------------------------|
E|-----------------------------------------------------|

E|---------------------------------------------------------13p12-12-|
B|-5-5-5-5-5-5-6-6/10-9-9h10-10-10/12-12-12-12-13-13-13-13----------|
G|------------------------------------------------------------------|
D|------------------------------------------------------------------|
A|------------------------------------------------------------------|
E|------------------------------------------------------------------|

E|-0-0-0-----1-1-1-----------------------------------------------|
B|-0-0---0---1-1---1-------9-----10-10-10------------------------|
G|-1-1-----1-2-2-----2-9-9---9---10-10----10----9-9-8-9-10-12-10-|
D|-2-2-------3-3-------9-9-----9-10-10-------10-9-9-8-9-10-12-10-|
A|-2---------3-3-------7-7-------8--8-----------7-7-6-7-8--10-8--|
E|-0---------1---------------------------------------------------|

E|-0-0-0-----1-1-1-----------------------------------------------|
B|-0-0---0---1-1---1-------9-----10-10-10------------------------|
G|-1-1-----1-2-2-----2-9-9---9---10-10----10----9-9-8-9-10-12-10-|
D|-2-2-------3-3-------9-9-----9-10-10-------10-9-9-8-9-10-12-10-|
A|-2---------3-3-------7-7-------8--8-----------7-7-6-7-8--10-8--|
E|-0---------1---------------------------------------------------|

E|-----------------------------------------------------------------------|
B|-----------------------------~~-17-17-16-16-16-14-14-14-14-14-14-14-14-|
G|-9b-9-9b-9-8b-8-8b-8-7b-7-7b-5--17-17-16-16-16-14-14-14-14-14-14-14-14-|
D|--------------------------------17-17-16-16-16-14-14-14-14-14-14-14-14-|
A|--------------------------------15-15-14-14-14-12-12-12-12-12-12-12-12-|
E|-----------------------------------------------------------------------|

E|--------------------------------------------------|
B|-14-14-12-12-12-9-9-9-9---------------------------|
G|-14-14-12-12-12-9-9-9-9-14b-14-14-14-12----12-----|
D|-14-14-12-12-12-9-9-9-9-----------------14----14--|
A|-12-12-10-10-10-7-7-7-7---------------------------|
E|--------------------------------------------------|
Image

Post Reply

Who is online

Users browsing this forum: No registered users and 2 guests