Question about santeria guitar tab

Share and update guitar / bass tabs
Post Reply
speeeeeed
Rank: Badfish
Rank: Badfish
Posts: 21
Joined: Mon Jan 09, 2006 10:14 am
Contact:

Question about santeria guitar tab

Post by speeeeeed » Wed Apr 26, 2006 9:48 pm

OK, I sry if I sound like a moron but I just started playing about a month ago and im trying to learn santeria ... so far so good into and chorus rift are down and the begining to the solo but sortly after the solo begins brad plays that fast inclining rift like 234 6th string 234 5th string 456 4th string and then like 5th fret on the 3rd sting, any ways it damn fast does he pick each fret or does he pick it and run his finger down the 3 frets .. it just seems so damn fast...

User avatar
Arena Productions 4ever
Rank: Pool Shark
Rank: Pool Shark
Posts: 693
Joined: Sat Apr 08, 2006 1:16 pm
Location: washington d.c, canada

Post by Arena Productions 4ever » Tue Aug 22, 2006 3:40 pm

----------------------------------------------------------------------------
----------------------------------------------------------------------------
----------------9-11*-9-8-6-8*-------------------------------------------
----------9-11-------------------11-11-9----9----------------------------
-7-9-11-----------------------------------11---11-9-11-9----------------
--------------------------------------------------------------11-9---------


-------------------------------9-9-7---7-------------------------------------
---------------------2-5-------------9--9-7-9-7------------------------------
----------------1-4-------------------------------9-6---------5--5-------------
------------2-4----------------------------------------9--7-6--6--------------
-------2-4---------------------------------------------------------------------
2-2-4-------------------------------------------------------------------------



-9------9---------7--------------------------------------------------------------
9-9--9---9--8----7--------------------------------------------------------------
----9------9------8------------------------------------------------------------
-------------------9----------------------------------------------------------
------------------------------------------------------------------------------
------------------------------------------------------------------------------

I noticed that you didnt exactly have teh right tabs

I pick all the strings and i play it just fine. u just gotta play with ur finger not a pick if u wanna not hammer. its actually pretty easy, practice it and once you play it fast, ull see, the tabs will be perfect.

*bend
Miss Pennylove, would you like some tea?
"oh quite certainly Mr. Honeywell..."

User avatar
commanderadam
Rank: Rock Star
Rank: Rock Star
Posts: 1049
Joined: Wed Aug 20, 2003 9:52 pm
Location: hell in a handbasket
Contact:

Post by commanderadam » Tue Sep 12, 2006 10:09 pm

try searching Guitar Worlds website for thier version, which is how i learned it
'In your world you can take a pen and write on a peice of paper and destroy 200,000 people or more and its ok becasue you don't have to see it..." --Charles Manson
Image

Post Reply

Who is online

Users browsing this forum: No registered users and 6 guests